ISO-10303-21;
HEADER;
FILE_DESCRIPTION (( 'STEP AP214' ),
    '1' );
FILE_NAME ('2012350.stp',
    '2023-03-06T12:08:28',
    ( '' ),
    ( '' ),
    'SwSTEP 2.0',
    'SolidWorks 2022',
    '' );
FILE_SCHEMA (( 'AUTOMOTIVE_DESIGN' ));
ENDSEC;

DATA;
#1 = CARTESIAN_POINT ( 'NONE',  ( 0.000000000000000000, 11.24026322094025865, 3.795452214305624850 ) ) ;
#2 = DIRECTION ( 'NONE',  ( 0.000000000000000000, 1.000000000000000000, 0.000000000000000000 ) ) ;
#3 = CARTESIAN_POINT ( 'NONE',  ( 0.000000000000000000, 13.00000000000000000, 0.000000000000000000 ) ) ;
#4 = PRESENTATION_STYLE_ASSIGNMENT (( #9 ) ) ;
#5 = CONICAL_SURFACE ( 'NONE', #167, 10.15000029346369992, 1.249283714599710660 ) ;
#6 = AXIS2_PLACEMENT_3D ( 'NONE', #172, #78, #59 ) ;
#7 = FACE_OUTER_BOUND ( 'NONE', #367, .T. ) ;
#8 = ORIENTED_EDGE ( 'NONE', *, *, #26, .T. ) ;
#9 = SURFACE_STYLE_USAGE ( .BOTH. , #45 ) ;
#10 = DIRECTION ( 'NONE',  ( 0.000000000000000000, 1.000000000000000000, 0.000000000000000000 ) ) ;
#11 = EDGE_CURVE ( 'NONE', #30, #30, #262, .T. ) ;
#12 =( NAMED_UNIT ( * ) PLANE_ANGLE_UNIT ( ) SI_UNIT ( $, .RADIAN. ) );
#13 = CYLINDRICAL_SURFACE ( 'NONE', #360, 10.95000029346399906 ) ;
#14 = EDGE_LOOP ( 'NONE', ( #244 ) ) ;
#15 = AXIS2_PLACEMENT_3D ( 'NONE', #221, #91, #122 ) ;
#16 = ORIENTED_EDGE ( 'NONE', *, *, #49, .F. ) ;
#17 = EDGE_CURVE ( 'NONE', #341, #341, #197, .T. ) ;
#18 = DIRECTION ( 'NONE',  ( 0.000000000000000000, 1.000000000000000000, 0.000000000000000000 ) ) ;
#19 = ORIENTED_EDGE ( 'NONE', *, *, #257, .T. ) ;
#20 = DIRECTION ( 'NONE',  ( 0.000000000000000000, 0.000000000000000000, 1.000000000000000000 ) ) ;
#21 = EDGE_LOOP ( 'NONE', ( #56 ) ) ;
#22 = CARTESIAN_POINT ( 'NONE',  ( 0.000000000000000000, 9.003645949727820508, 0.000000000000000000 ) ) ;
#23 = CIRCLE ( 'NONE', #321, 10.15000029346369992 ) ;
#24 = ORIENTED_EDGE ( 'NONE', *, *, #40, .T. ) ;
#25 = CONICAL_SURFACE ( 'NONE', #208, 9.960784313725458361, 0.4183494090366979279 ) ;
#26 = EDGE_CURVE ( 'NONE', #226, #226, #304, .T. ) ;
#27 = CARTESIAN_POINT ( 'NONE',  ( 0.000000000000000000, 9.500000000000000000, 9.000000000000000000 ) ) ;
#28 = VERTEX_POINT ( 'NONE', #151 ) ;
#29 = PRESENTATION_STYLE_ASSIGNMENT (( #253 ) ) ;
#30 = VERTEX_POINT ( 'NONE', #281 ) ;
#31 = CYLINDRICAL_SURFACE ( 'NONE', #128, 9.000000000000000000 ) ;
#32 = CONICAL_SURFACE ( 'NONE', #190, 1.772613503757045184, 1.483529864195207937 ) ;
#33 = ADVANCED_BREP_SHAPE_REPRESENTATION ( '2012350', ( #51, #135 ), #233 ) ;
#34 = PRESENTATION_LAYER_ASSIGNMENT (  '', '', ( #228 ) ) ;
#35 = ADVANCED_FACE ( 'NONE', ( #342, #213 ), #384, .T. ) ;
#36 = SURFACE_SIDE_STYLE ('',( #249 ) ) ;
#37 = FACE_BOUND ( 'NONE', #14, .T. ) ;
#38 = FACE_OUTER_BOUND ( 'NONE', #141, .T. ) ;
#39 = AXIS2_PLACEMENT_3D ( 'NONE', #260, #73, #199 ) ;
#40 = EDGE_CURVE ( 'NONE', #371, #371, #366, .T. ) ;
#41 = CARTESIAN_POINT ( 'NONE',  ( 0.000000000000000000, 3.200000000000000178, 10.95000029346399906 ) ) ;
#42 = CARTESIAN_POINT ( 'NONE',  ( 0.000000000000000000, 7.003051141389609491, 0.000000000000000000 ) ) ;
#43 = APPLICATION_PROTOCOL_DEFINITION ( 'draft international standard', 'automotive_design', 1998, #177 ) ;
#44 = DIRECTION ( 'NONE',  ( 0.000000000000000000, 0.000000000000000000, 1.000000000000000000 ) ) ;
#45 = SURFACE_SIDE_STYLE ('',( #323 ) ) ;
#46 = APPLICATION_PROTOCOL_DEFINITION ( 'draft international standard', 'automotive_design', 1998, #415 ) ;
#47 = CIRCLE ( 'NONE', #120, 3.795452214305624850 ) ;
#48 = DIRECTION ( 'NONE',  ( 0.000000000000000000, 0.000000000000000000, 1.000000000000000000 ) ) ;
#49 = EDGE_CURVE ( 'NONE', #90, #90, #411, .T. ) ;
#50 =( NAMED_UNIT ( * ) SI_UNIT ( $, .STERADIAN. ) SOLID_ANGLE_UNIT ( ) );
#51 = MANIFOLD_SOLID_BREP ( '2012340.stp<1>', #254 ) ;
#52 = EDGE_LOOP ( 'NONE', ( #8 ) ) ;
#53 = DIRECTION ( 'NONE',  ( 0.000000000000000000, 0.000000000000000000, 1.000000000000000000 ) ) ;
#54 = ORIENTED_EDGE ( 'NONE', *, *, #187, .F. ) ;
#55 = AXIS2_PLACEMENT_3D ( 'NONE', #317, #2, #131 ) ;
#56 = ORIENTED_EDGE ( 'NONE', *, *, #374, .T. ) ;
#57 = DIRECTION ( 'NONE',  ( 0.000000000000000000, 1.000000000000000000, 0.000000000000000000 ) ) ;
#58 = EDGE_LOOP ( 'NONE', ( #144 ) ) ;
#59 = DIRECTION ( 'NONE',  ( 0.000000000000000000, 0.000000000000000000, 1.000000000000000000 ) ) ;
#60 = EDGE_LOOP ( 'NONE', ( #211 ) ) ;
#61 = CYLINDRICAL_SURFACE ( 'NONE', #83, 10.15000029346369992 ) ;
#62 = AXIS2_PLACEMENT_3D ( 'NONE', #390, #137, #292 ) ;
#63 = CARTESIAN_POINT ( 'NONE',  ( 0.000000000000000000, 12.65000000000000036, 0.000000000000000000 ) ) ;
#64 = CARTESIAN_POINT ( 'NONE',  ( 0.000000000000000000, 12.80512893228805993, 4.000000000000000000 ) ) ;
#65 = DIRECTION ( 'NONE',  ( 0.000000000000000000, 0.000000000000000000, -1.000000000000000000 ) ) ;
#66 = VERTEX_POINT ( 'NONE', #351 ) ;
#67 =( NAMED_UNIT ( * ) SI_UNIT ( $, .STERADIAN. ) SOLID_ANGLE_UNIT ( ) );
#68 = ADVANCED_FACE ( 'NONE', ( #414, #413 ), #305, .T. ) ;
#69 = DIRECTION ( 'NONE',  ( 0.000000000000000000, -1.000000000000000000, 0.000000000000000000 ) ) ;
#70 = CYLINDRICAL_SURFACE ( 'NONE', #55, 6.500000000000000000 ) ;
#71 = PRODUCT_DEFINITION_SHAPE ( 'NONE', 'NONE',  #309 ) ;
#72 =( NAMED_UNIT ( * ) PLANE_ANGLE_UNIT ( ) SI_UNIT ( $, .RADIAN. ) );
#73 = DIRECTION ( 'NONE',  ( 0.000000000000000000, 1.000000000000000000, 0.000000000000000000 ) ) ;
#74 = DIRECTION ( 'NONE',  ( 0.000000000000000000, 0.000000000000000000, 1.000000000000000000 ) ) ;
#75 = EDGE_LOOP ( 'NONE', ( #237 ) ) ;
#76 = FACE_OUTER_BOUND ( 'NONE', #52, .T. ) ;
#77 =( GEOMETRIC_REPRESENTATION_CONTEXT ( 3 ) GLOBAL_UNCERTAINTY_ASSIGNED_CONTEXT ( ( #306 ) ) GLOBAL_UNIT_ASSIGNED_CONTEXT ( ( #169, #12, #50 ) ) REPRESENTATION_CONTEXT ( 'NONE', 'WORKASPACE' ) );
#78 = DIRECTION ( 'NONE',  ( 0.000000000000000000, 1.000000000000000000, 0.000000000000000000 ) ) ;
#79 = ORIENTED_EDGE ( 'NONE', *, *, #17, .T. ) ;
#80 = ORIENTED_EDGE ( 'NONE', *, *, #374, .F. ) ;
#81 = AXIS2_PLACEMENT_3D ( 'NONE', #192, #375, #283 ) ;
#82 = DIRECTION ( 'NONE',  ( 0.000000000000000000, 1.000000000000000000, 0.000000000000000000 ) ) ;
#83 = AXIS2_PLACEMENT_3D ( 'NONE', #153, #250, #161 ) ;
#84 = ORIENTED_EDGE ( 'NONE', *, *, #207, .T. ) ;
#85 = PRODUCT_DEFINITION_CONTEXT ( 'detailed design', #415, 'design' ) ;
#86 = ORIENTED_EDGE ( 'NONE', *, *, #108, .F. ) ;
#87 = VERTEX_POINT ( 'NONE', #27 ) ;
#88 = EDGE_LOOP ( 'NONE', ( #19 ) ) ;
#89 = CARTESIAN_POINT ( 'NONE',  ( 0.000000000000000000, 13.00000000000000000, 0.000000000000000000 ) ) ;
#90 = VERTEX_POINT ( 'NONE', #41 ) ;
#91 = DIRECTION ( 'NONE',  ( 0.000000000000000000, 1.000000000000000000, 0.000000000000000000 ) ) ;
#92 = ADVANCED_FACE ( 'NONE', ( #156, #310 ), #31, .T. ) ;
#93 = DIRECTION ( 'NONE',  ( 0.000000000000000000, 0.000000000000000000, 1.000000000000000000 ) ) ;
#94 = ORIENTED_EDGE ( 'NONE', *, *, #416, .F. ) ;
#95 = AXIS2_PLACEMENT_3D ( 'NONE', #385, #261, #358 ) ;
#96 = CONICAL_SURFACE ( 'NONE', #202, 9.000000000000000000, 0.2617993877991492968 ) ;
#97 = DIRECTION ( 'NONE',  ( 0.000000000000000000, 0.000000000000000000, 1.000000000000000000 ) ) ;
#98 = VERTEX_POINT ( 'NONE', #407 ) ;
#99 = DIRECTION ( 'NONE',  ( 0.000000000000000000, 0.000000000000000000, 1.000000000000000000 ) ) ;
#100 = DIRECTION ( 'NONE',  ( 0.000000000000000000, 1.000000000000000000, 0.000000000000000000 ) ) ;
#101 = AXIS2_PLACEMENT_3D ( 'NONE', #339, #127, #279 ) ;
#102 = DIRECTION ( 'NONE',  ( 0.000000000000000000, 1.000000000000000000, 0.000000000000000000 ) ) ;
#103 = ADVANCED_FACE ( 'NONE', ( #37, #378 ), #32, .T. ) ;
#104 = FILL_AREA_STYLE ('',( #289 ) ) ;
#105 = DIRECTION ( 'NONE',  ( 0.000000000000000000, 1.000000000000000000, 0.000000000000000000 ) ) ;
#106 = DIRECTION ( 'NONE',  ( 1.000000000000000000, 0.000000000000000000, 0.000000000000000000 ) ) ;
#107 = STYLED_ITEM ( 'NONE', ( #29 ), #51 ) ;
#108 = EDGE_CURVE ( 'NONE', #373, #373, #145, .T. ) ;
#109 = EDGE_LOOP ( 'NONE', ( #331 ) ) ;
#110 = EDGE_LOOP ( 'NONE', ( #362 ) ) ;
#111 = CARTESIAN_POINT ( 'NONE',  ( 0.000000000000000000, 0.9750139512978860390, 0.000000000000000000 ) ) ;
#112 = ORIENTED_EDGE ( 'NONE', *, *, #245, .T. ) ;
#113 = CIRCLE ( 'NONE', #62, 9.000000000000000000 ) ;
#114 = DIRECTION ( 'NONE',  ( 0.000000000000000000, 1.000000000000000000, 0.000000000000000000 ) ) ;
#115 = EDGE_LOOP ( 'NONE', ( #166 ) ) ;
#116 = ADVANCED_FACE ( 'NONE', ( #157, #124 ), #5, .F. ) ;
#117 = DIRECTION ( 'NONE',  ( 0.000000000000000000, -1.000000000000000000, 0.000000000000000000 ) ) ;
#118 = EDGE_LOOP ( 'NONE', ( #54 ) ) ;
#119 = CARTESIAN_POINT ( 'NONE',  ( 0.000000000000000000, 11.24026322094025865, 0.000000000000000000 ) ) ;
#120 = AXIS2_PLACEMENT_3D ( 'NONE', #231, #102, #420 ) ;
#121 = CIRCLE ( 'NONE', #332, 10.95000029346399906 ) ;
#122 = DIRECTION ( 'NONE',  ( 0.000000000000000000, 0.000000000000000000, 1.000000000000000000 ) ) ;
#123 = CARTESIAN_POINT ( 'NONE',  ( 0.000000000000000000, 13.00000000000000000, 1.772613503757045184 ) ) ;
#124 = FACE_OUTER_BOUND ( 'NONE', #58, .T. ) ;
#125 = FILL_AREA_STYLE ('',( #186 ) ) ;
#126 = PRODUCT ( '2012350', '2012350', '', ( #397 ) ) ;
#127 = DIRECTION ( 'NONE',  ( 0.000000000000000000, 1.000000000000000000, 0.000000000000000000 ) ) ;
#128 = AXIS2_PLACEMENT_3D ( 'NONE', #63, #313, #215 ) ;
#129 = FACE_OUTER_BOUND ( 'NONE', #302, .T. ) ;
#130 = CARTESIAN_POINT ( 'NONE',  ( 0.000000000000000000, 3.903051141389604961, 10.95000029346399906 ) ) ;
#131 = DIRECTION ( 'NONE',  ( 0.000000000000000000, 0.000000000000000000, 1.000000000000000000 ) ) ;
#132 = DIRECTION ( 'NONE',  ( 0.000000000000000000, 1.000000000000000000, 0.000000000000000000 ) ) ;
#133 = EDGE_CURVE ( 'NONE', #66, #66, #23, .T. ) ;
#134 = AXIS2_PLACEMENT_3D ( 'NONE', #410, #308, #417 ) ;
#135 = AXIS2_PLACEMENT_3D ( 'NONE', #204, #318, #106 ) ;
#136 = DIRECTION ( 'NONE',  ( 0.000000000000000000, 0.000000000000000000, -1.000000000000000000 ) ) ;
#137 = DIRECTION ( 'NONE',  ( 0.000000000000000000, 1.000000000000000000, 0.000000000000000000 ) ) ;
#138 = EDGE_LOOP ( 'NONE', ( #300 ) ) ;
#139 = CIRCLE ( 'NONE', #274, 12.40000029346369992 ) ;
#140 = CARTESIAN_POINT ( 'NONE',  ( 0.000000000000000000, 3.903051141389604961, 0.000000000000000000 ) ) ;
#141 = EDGE_LOOP ( 'NONE', ( #165 ) ) ;
#142 = FACE_OUTER_BOUND ( 'NONE', #325, .T. ) ;
#143 = ORIENTED_EDGE ( 'NONE', *, *, #17, .F. ) ;
#144 = ORIENTED_EDGE ( 'NONE', *, *, #238, .F. ) ;
#145 = CIRCLE ( 'NONE', #183, 9.960784313725458361 ) ;
#146 = CARTESIAN_POINT ( 'NONE',  ( 0.000000000000000000, 12.65000000000000036, 0.000000000000000000 ) ) ;
#147 = EDGE_LOOP ( 'NONE', ( #334 ) ) ;
#148 = CARTESIAN_POINT ( 'NONE',  ( 0.000000000000000000, 6.253645949727800080, 12.40000029346369992 ) ) ;
#149 =( NAMED_UNIT ( * ) PLANE_ANGLE_UNIT ( ) SI_UNIT ( $, .RADIAN. ) );
#150 = ADVANCED_FACE ( 'NONE', ( #258, #7 ), #316, .T. ) ;
#151 = CARTESIAN_POINT ( 'NONE',  ( 0.000000000000000000, 8.003645949727809850, 12.40000029346369992 ) ) ;
#152 = DIRECTION ( 'NONE',  ( 0.000000000000000000, 0.000000000000000000, 1.000000000000000000 ) ) ;
#153 = CARTESIAN_POINT ( 'NONE',  ( 0.000000000000000000, 12.65000000000000036, 0.000000000000000000 ) ) ;
#154 = CIRCLE ( 'NONE', #206, 10.15000029346369992 ) ;
#155 = DIRECTION ( 'NONE',  ( 0.000000000000000000, -1.000000000000000000, 0.000000000000000000 ) ) ;
#156 = FACE_OUTER_BOUND ( 'NONE', #176, .T. ) ;
#157 = FACE_BOUND ( 'NONE', #405, .T. ) ;
#158 = EDGE_CURVE ( 'NONE', #28, #28, #232, .T. ) ;
#159 = AXIS2_PLACEMENT_3D ( 'NONE', #320, #352, #136 ) ;
#160 = AXIS2_PLACEMENT_3D ( 'NONE', #329, #114, #236 ) ;
#161 = DIRECTION ( 'NONE',  ( 0.000000000000000000, 0.000000000000000000, 1.000000000000000000 ) ) ;
#162 = FACE_OUTER_BOUND ( 'NONE', #270, .T. ) ;
#163 = ADVANCED_FACE ( 'NONE', ( #76, #386 ), #222, .T. ) ;
#164 = FACE_BOUND ( 'NONE', #110, .T. ) ;
#165 = ORIENTED_EDGE ( 'NONE', *, *, #416, .T. ) ;
#166 = ORIENTED_EDGE ( 'NONE', *, *, #252, .T. ) ;
#167 = AXIS2_PLACEMENT_3D ( 'NONE', #251, #380, #345 ) ;
#168 = DIRECTION ( 'NONE',  ( 0.000000000000000000, 0.000000000000000000, 1.000000000000000000 ) ) ;
#169 =( LENGTH_UNIT ( ) NAMED_UNIT ( * ) SI_UNIT ( .MILLI., .METRE. ) );
#170 = FACE_BOUND ( 'NONE', #210, .T. ) ;
#171 = EDGE_LOOP ( 'NONE', ( #143 ) ) ;
#172 = CARTESIAN_POINT ( 'NONE',  ( 0.000000000000000000, 12.65000000000000036, 0.000000000000000000 ) ) ;
#173 = EDGE_LOOP ( 'NONE', ( #182 ) ) ;
#174 = CIRCLE ( 'NONE', #95, 6.500000000000000000 ) ;
#175 = DIRECTION ( 'NONE',  ( 0.000000000000000000, -1.000000000000000000, 0.000000000000000000 ) ) ;
#176 = EDGE_LOOP ( 'NONE', ( #84 ) ) ;
#177 = APPLICATION_CONTEXT ( 'automotive_design' ) ;
#178 = EDGE_CURVE ( 'NONE', #343, #343, #291, .T. ) ;
#179 = DIRECTION ( 'NONE',  ( 0.000000000000000000, 0.000000000000000000, 1.000000000000000000 ) ) ;
#180 = ORIENTED_EDGE ( 'NONE', *, *, #26, .F. ) ;
#181 = FACE_BOUND ( 'NONE', #357, .T. ) ;
#182 = ORIENTED_EDGE ( 'NONE', *, *, #225, .F. ) ;
#183 = AXIS2_PLACEMENT_3D ( 'NONE', #217, #344, #218 ) ;
#184 = AXIS2_PLACEMENT_3D ( 'NONE', #363, #175, #361 ) ;
#185 = FACE_OUTER_BOUND ( 'NONE', #276, .T. ) ;
#186 = FILL_AREA_STYLE_COLOUR ( '', #418 ) ;
#187 = EDGE_CURVE ( 'NONE', #87, #87, #113, .T. ) ;
#188 = VERTEX_POINT ( 'NONE', #1 ) ;
#189 = DIRECTION ( 'NONE',  ( 0.000000000000000000, -1.000000000000000000, 0.000000000000000000 ) ) ;
#190 = AXIS2_PLACEMENT_3D ( 'NONE', #89, #155, #65 ) ;
#191 = CONICAL_SURFACE ( 'NONE', #160, 4.000000000000000000, 0.2617993877990644203 ) ;
#192 = CARTESIAN_POINT ( 'NONE',  ( 0.000000000000000000, 12.80512893228805993, 0.000000000000000000 ) ) ;
#193 =( LENGTH_UNIT ( ) NAMED_UNIT ( * ) SI_UNIT ( .MILLI., .METRE. ) );
#194 = DIRECTION ( 'NONE',  ( 0.000000000000000000, 0.000000000000000000, -1.000000000000000000 ) ) ;
#195 =( NAMED_UNIT ( * ) SI_UNIT ( $, .STERADIAN. ) SOLID_ANGLE_UNIT ( ) );
#196 = DIRECTION ( 'NONE',  ( 0.000000000000000000, 1.000000000000000000, 0.000000000000000000 ) ) ;
#197 = CIRCLE ( 'NONE', #81, 4.000000000000000000 ) ;
#198 = CARTESIAN_POINT ( 'NONE',  ( 0.000000000000000000, 12.00364594972769972, 4.000000000000000000 ) ) ;
#199 = DIRECTION ( 'NONE',  ( 0.000000000000000000, 0.000000000000000000, 1.000000000000000000 ) ) ;
#200 = CARTESIAN_POINT ( 'NONE',  ( 0.000000000000000000, 9.003645949727820508, 0.000000000000000000 ) ) ;
#201 = DIRECTION ( 'NONE',  ( 0.000000000000000000, -1.000000000000000000, 0.000000000000000000 ) ) ;
#202 = AXIS2_PLACEMENT_3D ( 'NONE', #22, #333, #179 ) ;
#203 = ORIENTED_EDGE ( 'NONE', *, *, #40, .F. ) ;
#204 = CARTESIAN_POINT ( 'NONE',  ( 0.000000000000000000, 0.000000000000000000, 0.000000000000000000 ) ) ;
#205 = ORIENTED_EDGE ( 'NONE', *, *, #133, .T. ) ;
#206 = AXIS2_PLACEMENT_3D ( 'NONE', #315, #10, #97 ) ;
#207 = EDGE_CURVE ( 'NONE', #286, #286, #346, .T. ) ;
#208 = AXIS2_PLACEMENT_3D ( 'NONE', #111, #82, #20 ) ;
#209 = FACE_OUTER_BOUND ( 'NONE', #328, .T. ) ;
#210 = EDGE_LOOP ( 'NONE', ( #398 ) ) ;
#211 = ORIENTED_EDGE ( 'NONE', *, *, #178, .T. ) ;
#212 = VERTEX_POINT ( 'NONE', #148 ) ;
#213 = FACE_OUTER_BOUND ( 'NONE', #75, .T. ) ;
#214 = CARTESIAN_POINT ( 'NONE',  ( 0.000000000000000000, 10.50364594972774057, 0.000000000000000000 ) ) ;
#215 = DIRECTION ( 'NONE',  ( 0.000000000000000000, 0.000000000000000000, 1.000000000000000000 ) ) ;
#216 = DIRECTION ( 'NONE',  ( 0.000000000000000000, 0.000000000000000000, 1.000000000000000000 ) ) ;
#217 = CARTESIAN_POINT ( 'NONE',  ( 0.000000000000000000, 5.204170427930419706E-15, 0.000000000000000000 ) ) ;
#218 = DIRECTION ( 'NONE',  ( 0.000000000000000000, 0.000000000000000000, 1.000000000000000000 ) ) ;
#219 = ADVANCED_FACE ( 'NONE', ( #164, #265 ), #266, .F. ) ;
#220 = AXIS2_PLACEMENT_3D ( 'NONE', #200, #132, #74 ) ;
#221 = CARTESIAN_POINT ( 'NONE',  ( 0.000000000000000000, 3.200000000000000178, 0.000000000000000000 ) ) ;
#222 = CYLINDRICAL_SURFACE ( 'NONE', #241, 4.000000000000000000 ) ;
#223 = DIRECTION ( 'NONE',  ( 0.000000000000000000, 1.000000000000000000, 0.000000000000000000 ) ) ;
#224 = DIRECTION ( 'NONE',  ( 0.000000000000000000, 0.000000000000000000, -1.000000000000000000 ) ) ;
#225 = EDGE_CURVE ( 'NONE', #188, #188, #47, .T. ) ;
#226 = VERTEX_POINT ( 'NONE', #198 ) ;
#227 = CARTESIAN_POINT ( 'NONE',  ( 0.000000000000000000, 9.736700783706879747, 0.000000000000000000 ) ) ;
#228 = STYLED_ITEM ( 'NONE', ( #4 ), #33 ) ;
#229 = PLANE ( 'NONE',  #381 ) ;
#230 = EDGE_LOOP ( 'NONE', ( #80 ) ) ;
#231 = CARTESIAN_POINT ( 'NONE',  ( 0.000000000000000000, 11.24026322094025865, 0.000000000000000000 ) ) ;
#232 = CIRCLE ( 'NONE', #39, 12.40000029346369992 ) ;
#233 =( GEOMETRIC_REPRESENTATION_CONTEXT ( 3 ) GLOBAL_UNCERTAINTY_ASSIGNED_CONTEXT ( ( #406 ) ) GLOBAL_UNIT_ASSIGNED_CONTEXT ( ( #338, #72, #195 ) ) REPRESENTATION_CONTEXT ( 'NONE', 'WORKASPACE' ) );
#234 = FACE_OUTER_BOUND ( 'NONE', #295, .T. ) ;
#235 = ORIENTED_EDGE ( 'NONE', *, *, #225, .T. ) ;
#236 = DIRECTION ( 'NONE',  ( 0.000000000000000000, 0.000000000000000000, 1.000000000000000000 ) ) ;
#237 = ORIENTED_EDGE ( 'NONE', *, *, #108, .T. ) ;
#238 = EDGE_CURVE ( 'NONE', #212, #212, #139, .T. ) ;
#239 = FACE_BOUND ( 'NONE', #403, .T. ) ;
#240 = EDGE_LOOP ( 'NONE', ( #79 ) ) ;
#241 = AXIS2_PLACEMENT_3D ( 'NONE', #287, #196, #168 ) ;
#242 = CONICAL_SURFACE ( 'NONE', #395, 6.500000000000000000, 0.2617993877992921270 ) ;
#243 = FACE_OUTER_BOUND ( 'NONE', #109, .T. ) ;
#244 = ORIENTED_EDGE ( 'NONE', *, *, #245, .F. ) ;
#245 = EDGE_CURVE ( 'NONE', #412, #412, #376, .T. ) ;
#246 = FACE_OUTER_BOUND ( 'NONE', #88, .T. ) ;
#247 = ORIENTED_EDGE ( 'NONE', *, *, #252, .F. ) ;
#248 = CARTESIAN_POINT ( 'NONE',  ( 0.000000000000000000, 5.204170427930419706E-15, 9.960784313725458361 ) ) ;
#249 = SURFACE_STYLE_FILL_AREA ( #125 ) ;
#250 = DIRECTION ( 'NONE',  ( 0.000000000000000000, 1.000000000000000000, 0.000000000000000000 ) ) ;
#251 = CARTESIAN_POINT ( 'NONE',  ( 0.000000000000000000, 7.003051141389609491, 0.000000000000000000 ) ) ;
#252 = EDGE_CURVE ( 'NONE', #277, #277, #174, .T. ) ;
#253 = SURFACE_STYLE_USAGE ( .BOTH. , #36 ) ;
#254 = CLOSED_SHELL ( 'NONE', ( #219, #368, #382, #35, #349, #285, #103, #163, #319, #392, #314, #335, #150, #92, #387, #68, #326, #116, #401 ) ) ;
#255 = CIRCLE ( 'NONE', #383, 6.500000000000000000 ) ;
#256 = CARTESIAN_POINT ( 'NONE',  ( 0.000000000000000000, 9.736700783706879747, 0.000000000000000000 ) ) ;
#257 = EDGE_CURVE ( 'NONE', #98, #98, #154, .T. ) ;
#258 = FACE_BOUND ( 'NONE', #138, .T. ) ;
#259 = VERTEX_POINT ( 'NONE', #353 ) ;
#260 = CARTESIAN_POINT ( 'NONE',  ( 0.000000000000000000, 8.003645949727809850, 0.000000000000000000 ) ) ;
#261 = DIRECTION ( 'NONE',  ( 0.000000000000000000, 1.000000000000000000, 0.000000000000000000 ) ) ;
#262 = CIRCLE ( 'NONE', #280, 6.294497662125640325 ) ;
#263 = MECHANICAL_DESIGN_GEOMETRIC_PRESENTATION_REPRESENTATION (  '', ( #228 ), #77 ) ;
#264 = ORIENTED_EDGE ( 'NONE', *, *, #49, .T. ) ;
#265 = FACE_OUTER_BOUND ( 'NONE', #21, .T. ) ;
#266 = PLANE ( 'NONE',  #159 ) ;
#267 = CARTESIAN_POINT ( 'NONE',  ( 0.000000000000000000, 10.50364594972774057, 0.000000000000000000 ) ) ;
#268 = MECHANICAL_DESIGN_GEOMETRIC_PRESENTATION_REPRESENTATION (  '', ( #107 ), #340 ) ;
#269 = ORIENTED_EDGE ( 'NONE', *, *, #187, .T. ) ;
#270 = EDGE_LOOP ( 'NONE', ( #112 ) ) ;
#271 = DIRECTION ( 'NONE',  ( 0.000000000000000000, 0.000000000000000000, 1.000000000000000000 ) ) ;
#272 = ORIENTED_EDGE ( 'NONE', *, *, #207, .F. ) ;
#273 = EDGE_LOOP ( 'NONE', ( #264 ) ) ;
#274 = AXIS2_PLACEMENT_3D ( 'NONE', #288, #356, #391 ) ;
#275 = CARTESIAN_POINT ( 'NONE',  ( 0.000000000000000000, 9.003645949727820508, 9.000000000000000000 ) ) ;
#276 = EDGE_LOOP ( 'NONE', ( #297 ) ) ;
#277 = VERTEX_POINT ( 'NONE', #379 ) ;
#278 = VERTEX_POINT ( 'NONE', #130 ) ;
#279 = DIRECTION ( 'NONE',  ( 0.000000000000000000, 0.000000000000000000, 1.000000000000000000 ) ) ;
#280 = AXIS2_PLACEMENT_3D ( 'NONE', #256, #284, #152 ) ;
#281 = CARTESIAN_POINT ( 'NONE',  ( 0.000000000000000000, 9.736700783706879747, 6.294497662125640325 ) ) ;
#282 = DIRECTION ( 'NONE',  ( 0.000000000000000000, 0.000000000000000000, -1.000000000000000000 ) ) ;
#283 = DIRECTION ( 'NONE',  ( 0.000000000000000000, 0.000000000000000000, 1.000000000000000000 ) ) ;
#284 = DIRECTION ( 'NONE',  ( 0.000000000000000000, 1.000000000000000000, 0.000000000000000000 ) ) ;
#285 = ADVANCED_FACE ( 'NONE', ( #162 ), #229, .F. ) ;
#286 = VERTEX_POINT ( 'NONE', #275 ) ;
#287 = CARTESIAN_POINT ( 'NONE',  ( 0.000000000000000000, 12.65000000000000036, 0.000000000000000000 ) ) ;
#288 = CARTESIAN_POINT ( 'NONE',  ( 0.000000000000000000, 6.253645949727800080, 0.000000000000000000 ) ) ;
#289 = FILL_AREA_STYLE_COLOUR ( '', #389 ) ;
#290 = DIRECTION ( 'NONE',  ( 0.000000000000000000, 1.000000000000000000, 0.000000000000000000 ) ) ;
#291 = CIRCLE ( 'NONE', #394, 8.816067218665009975 ) ;
#292 = DIRECTION ( 'NONE',  ( 0.000000000000000000, 0.000000000000000000, 1.000000000000000000 ) ) ;
#293 = DIRECTION ( 'NONE',  ( 0.000000000000000000, 0.000000000000000000, 1.000000000000000000 ) ) ;
#294 = EDGE_LOOP ( 'NONE', ( #86 ) ) ;
#295 = EDGE_LOOP ( 'NONE', ( #94 ) ) ;
#296 = FACE_OUTER_BOUND ( 'NONE', #230, .T. ) ;
#297 = ORIENTED_EDGE ( 'NONE', *, *, #133, .F. ) ;
#298 = UNCERTAINTY_MEASURE_WITH_UNIT (LENGTH_MEASURE( 1.000000000000000082E-05 ), #193, 'distance_accuracy_value', 'NONE');
#299 = FACE_BOUND ( 'NONE', #173, .T. ) ;
#300 = ORIENTED_EDGE ( 'NONE', *, *, #11, .F. ) ;
#301 = FACE_BOUND ( 'NONE', #60, .T. ) ;
#302 = EDGE_LOOP ( 'NONE', ( #247 ) ) ;
#303 = PRODUCT_RELATED_PRODUCT_CATEGORY ( 'part', '', ( #126 ) ) ;
#304 = CIRCLE ( 'NONE', #134, 4.000000000000000000 ) ;
#305 = CONICAL_SURFACE ( 'NONE', #402, 8.816067218665009975, 1.483529864195217263 ) ;
#306 = UNCERTAINTY_MEASURE_WITH_UNIT (LENGTH_MEASURE( 1.000000000000000082E-05 ), #169, 'distance_accuracy_value', 'NONE');
#307 = CARTESIAN_POINT ( 'NONE',  ( 0.000000000000000000, 0.9750139512978860390, 9.960784313725458361 ) ) ;
#308 = DIRECTION ( 'NONE',  ( 0.000000000000000000, 1.000000000000000000, 0.000000000000000000 ) ) ;
#309 = PRODUCT_DEFINITION ( 'UNKNOWN', '', #347, #85 ) ;
#310 = FACE_OUTER_BOUND ( 'NONE', #118, .T. ) ;
#311 = AXIS2_PLACEMENT_3D ( 'NONE', #312, #408, #93 ) ;
#312 = CARTESIAN_POINT ( 'NONE',  ( 0.000000000000000000, 12.65000000000000036, 0.000000000000000000 ) ) ;
#313 = DIRECTION ( 'NONE',  ( 0.000000000000000000, 1.000000000000000000, 0.000000000000000000 ) ) ;
#314 = ADVANCED_FACE ( 'NONE', ( #38, #129 ), #70, .T. ) ;
#315 = CARTESIAN_POINT ( 'NONE',  ( 0.000000000000000000, 3.903051141389604961, 0.000000000000000000 ) ) ;
#316 = CONICAL_SURFACE ( 'NONE', #330, 6.294497662125640325, 1.483529864195184622 ) ;
#317 = CARTESIAN_POINT ( 'NONE',  ( 0.000000000000000000, 12.65000000000000036, 0.000000000000000000 ) ) ;
#318 = DIRECTION ( 'NONE',  ( 0.000000000000000000, 0.000000000000000000, 1.000000000000000000 ) ) ;
#319 = ADVANCED_FACE ( 'NONE', ( #239, #142 ), #191, .T. ) ;
#320 = CARTESIAN_POINT ( 'NONE',  ( 0.000000000000000000, 3.903051141389604961, 0.000000000000000000 ) ) ;
#321 = AXIS2_PLACEMENT_3D ( 'NONE', #42, #290, #44 ) ;
#322 = CONICAL_SURFACE ( 'NONE', #419, 3.795452214305624850, 1.483529864195155978 ) ;
#323 = SURFACE_STYLE_FILL_AREA ( #104 ) ;
#324 = CYLINDRICAL_SURFACE ( 'NONE', #6, 12.40000029346369992 ) ;
#325 = EDGE_LOOP ( 'NONE', ( #180 ) ) ;
#326 = ADVANCED_FACE ( 'NONE', ( #359, #243 ), #324, .T. ) ;
#327 = DIRECTION ( 'NONE',  ( 0.000000000000000000, 1.000000000000000000, 0.000000000000000000 ) ) ;
#328 = EDGE_LOOP ( 'NONE', ( #272 ) ) ;
#329 = CARTESIAN_POINT ( 'NONE',  ( 0.000000000000000000, 12.00364594972769972, 0.000000000000000000 ) ) ;
#330 = AXIS2_PLACEMENT_3D ( 'NONE', #227, #201, #224 ) ;
#331 = ORIENTED_EDGE ( 'NONE', *, *, #158, .F. ) ;
#332 = AXIS2_PLACEMENT_3D ( 'NONE', #140, #18, #271 ) ;
#333 = DIRECTION ( 'NONE',  ( 0.000000000000000000, 1.000000000000000000, 0.000000000000000000 ) ) ;
#334 = ORIENTED_EDGE ( 'NONE', *, *, #178, .F. ) ;
#335 = ADVANCED_FACE ( 'NONE', ( #170, #234 ), #242, .T. ) ;
#336 = FACE_OUTER_BOUND ( 'NONE', #273, .T. ) ;
#337 = EDGE_LOOP ( 'NONE', ( #396 ) ) ;
#338 =( LENGTH_UNIT ( ) NAMED_UNIT ( * ) SI_UNIT ( .MILLI., .METRE. ) );
#339 = CARTESIAN_POINT ( 'NONE',  ( 0.000000000000000000, 0.9750139512978860390, 0.000000000000000000 ) ) ;
#340 =( GEOMETRIC_REPRESENTATION_CONTEXT ( 3 ) GLOBAL_UNCERTAINTY_ASSIGNED_CONTEXT ( ( #298 ) ) GLOBAL_UNIT_ASSIGNED_CONTEXT ( ( #193, #149, #67 ) ) REPRESENTATION_CONTEXT ( 'NONE', 'WORKASPACE' ) );
#341 = VERTEX_POINT ( 'NONE', #64 ) ;
#342 = FACE_OUTER_BOUND ( 'NONE', #370, .T. ) ;
#343 = VERTEX_POINT ( 'NONE', #409 ) ;
#344 = DIRECTION ( 'NONE',  ( 0.000000000000000000, 1.000000000000000000, 0.000000000000000000 ) ) ;
#345 = DIRECTION ( 'NONE',  ( 0.000000000000000000, 0.000000000000000000, -1.000000000000000000 ) ) ;
#346 = CIRCLE ( 'NONE', #220, 9.000000000000000000 ) ;
#347 = PRODUCT_DEFINITION_FORMATION_WITH_SPECIFIED_SOURCE ( 'ANY', '', #126, .NOT_KNOWN. ) ;
#348 = CARTESIAN_POINT ( 'NONE',  ( 0.000000000000000000, 8.317199464608171056, 0.000000000000000000 ) ) ;
#349 = ADVANCED_FACE ( 'NONE', ( #365 ), #369, .T. ) ;
#350 = CARTESIAN_POINT ( 'NONE',  ( 0.000000000000000000, 13.00000000000000000, 0.000000000000000000 ) ) ;
#351 = CARTESIAN_POINT ( 'NONE',  ( 0.000000000000000000, 7.003051141389609491, 10.15000029346369992 ) ) ;
#352 = DIRECTION ( 'NONE',  ( 0.000000000000000000, -1.000000000000000000, 0.000000000000000000 ) ) ;
#353 = CARTESIAN_POINT ( 'NONE',  ( 0.000000000000000000, 10.50364594972774057, 6.500000000000000000 ) ) ;
#354 = AXIS2_PLACEMENT_3D ( 'NONE', #3, #105, #48 ) ;
#355 = CARTESIAN_POINT ( 'NONE',  ( 0.000000000000000000, 8.317199464608171056, 0.000000000000000000 ) ) ;
#356 = DIRECTION ( 'NONE',  ( 0.000000000000000000, 1.000000000000000000, 0.000000000000000000 ) ) ;
#357 = EDGE_LOOP ( 'NONE', ( #24 ) ) ;
#358 = DIRECTION ( 'NONE',  ( 0.000000000000000000, 0.000000000000000000, 1.000000000000000000 ) ) ;
#359 = FACE_OUTER_BOUND ( 'NONE', #337, .T. ) ;
#360 = AXIS2_PLACEMENT_3D ( 'NONE', #146, #327, #53 ) ;
#361 = DIRECTION ( 'NONE',  ( 0.000000000000000000, 0.000000000000000000, -1.000000000000000000 ) ) ;
#362 = ORIENTED_EDGE ( 'NONE', *, *, #257, .F. ) ;
#363 = CARTESIAN_POINT ( 'NONE',  ( 0.000000000000000000, 2.602085213965209853E-15, 0.000000000000000000 ) ) ;
#364 = EDGE_LOOP ( 'NONE', ( #372 ) ) ;
#365 = FACE_OUTER_BOUND ( 'NONE', #294, .T. ) ;
#366 = CIRCLE ( 'NONE', #101, 9.960784313725458361 ) ;
#367 = EDGE_LOOP ( 'NONE', ( #269 ) ) ;
#368 = ADVANCED_FACE ( 'NONE', ( #296, #336 ), #13, .T. ) ;
#369 = PLANE ( 'NONE',  #184 ) ;
#370 = EDGE_LOOP ( 'NONE', ( #203 ) ) ;
#371 = VERTEX_POINT ( 'NONE', #307 ) ;
#372 = ORIENTED_EDGE ( 'NONE', *, *, #158, .T. ) ;
#373 = VERTEX_POINT ( 'NONE', #248 ) ;
#374 = EDGE_CURVE ( 'NONE', #278, #278, #121, .T. ) ;
#375 = DIRECTION ( 'NONE',  ( 0.000000000000000000, 1.000000000000000000, 0.000000000000000000 ) ) ;
#376 = CIRCLE ( 'NONE', #354, 1.772613503757045184 ) ;
#377 = FACE_OUTER_BOUND ( 'NONE', #115, .T. ) ;
#378 = FACE_OUTER_BOUND ( 'NONE', #240, .T. ) ;
#379 = CARTESIAN_POINT ( 'NONE',  ( 0.000000000000000000, 11.00364594972780097, 6.500000000000000000 ) ) ;
#380 = DIRECTION ( 'NONE',  ( 0.000000000000000000, -1.000000000000000000, 0.000000000000000000 ) ) ;
#381 = AXIS2_PLACEMENT_3D ( 'NONE', #350, #69, #194 ) ;
#382 = ADVANCED_FACE ( 'NONE', ( #181, #399 ), #25, .T. ) ;
#383 = AXIS2_PLACEMENT_3D ( 'NONE', #214, #223, #216 ) ;
#384 = CYLINDRICAL_SURFACE ( 'NONE', #311, 9.960784313725458361 ) ;
#385 = CARTESIAN_POINT ( 'NONE',  ( 0.000000000000000000, 11.00364594972780097, 0.000000000000000000 ) ) ;
#386 = FACE_OUTER_BOUND ( 'NONE', #171, .T. ) ;
#387 = ADVANCED_FACE ( 'NONE', ( #301, #209 ), #96, .T. ) ;
#388 = PRESENTATION_LAYER_ASSIGNMENT (  '', '', ( #107 ) ) ;
#389 = COLOUR_RGB ( '',0.7529411764705882248, 0.7529411764705882248, 0.7529411764705882248 ) ;
#390 = CARTESIAN_POINT ( 'NONE',  ( 0.000000000000000000, 9.500000000000000000, 0.000000000000000000 ) ) ;
#391 = DIRECTION ( 'NONE',  ( 0.000000000000000000, 0.000000000000000000, 1.000000000000000000 ) ) ;
#392 = ADVANCED_FACE ( 'NONE', ( #299, #377 ), #322, .T. ) ;
#393 = SHAPE_DEFINITION_REPRESENTATION ( #71, #33 ) ;
#394 = AXIS2_PLACEMENT_3D ( 'NONE', #355, #100, #99 ) ;
#395 = AXIS2_PLACEMENT_3D ( 'NONE', #267, #57, #293 ) ;
#396 = ORIENTED_EDGE ( 'NONE', *, *, #238, .T. ) ;
#397 = PRODUCT_CONTEXT ( 'NONE', #177, 'mechanical' ) ;
#398 = ORIENTED_EDGE ( 'NONE', *, *, #11, .T. ) ;
#399 = FACE_OUTER_BOUND ( 'NONE', #400, .T. ) ;
#400 = EDGE_LOOP ( 'NONE', ( #16 ) ) ;
#401 = ADVANCED_FACE ( 'NONE', ( #185, #246 ), #61, .T. ) ;
#402 = AXIS2_PLACEMENT_3D ( 'NONE', #348, #189, #282 ) ;
#403 = EDGE_LOOP ( 'NONE', ( #235 ) ) ;
#404 = DIRECTION ( 'NONE',  ( 0.000000000000000000, 0.000000000000000000, -1.000000000000000000 ) ) ;
#405 = EDGE_LOOP ( 'NONE', ( #205 ) ) ;
#406 = UNCERTAINTY_MEASURE_WITH_UNIT (LENGTH_MEASURE( 1.000000000000000082E-05 ), #338, 'distance_accuracy_value', 'NONE');
#407 = CARTESIAN_POINT ( 'NONE',  ( 0.000000000000000000, 3.903051141389604961, 10.15000029346369992 ) ) ;
#408 = DIRECTION ( 'NONE',  ( 0.000000000000000000, 1.000000000000000000, 0.000000000000000000 ) ) ;
#409 = CARTESIAN_POINT ( 'NONE',  ( 0.000000000000000000, 8.317199464608171056, 8.816067218665009975 ) ) ;
#410 = CARTESIAN_POINT ( 'NONE',  ( 0.000000000000000000, 12.00364594972769972, 0.000000000000000000 ) ) ;
#411 = CIRCLE ( 'NONE', #15, 10.95000029346399906 ) ;
#412 = VERTEX_POINT ( 'NONE', #123 ) ;
#413 = FACE_OUTER_BOUND ( 'NONE', #364, .T. ) ;
#414 = FACE_BOUND ( 'NONE', #147, .T. ) ;
#415 = APPLICATION_CONTEXT ( 'automotive_design' ) ;
#416 = EDGE_CURVE ( 'NONE', #259, #259, #255, .T. ) ;
#417 = DIRECTION ( 'NONE',  ( 0.000000000000000000, 0.000000000000000000, 1.000000000000000000 ) ) ;
#418 = COLOUR_RGB ( '',0.7529411764705882248, 0.7529411764705882248, 0.7529411764705882248 ) ;
#419 = AXIS2_PLACEMENT_3D ( 'NONE', #119, #117, #404 ) ;
#420 = DIRECTION ( 'NONE',  ( 0.000000000000000000, 0.000000000000000000, 1.000000000000000000 ) ) ;
ENDSEC;
END-ISO-10303-21;
